ISO-10303-21;
HEADER;
FILE_DESCRIPTION (( 'STEP AP203' ),
    '1' );
FILE_NAME ('QB-CTZQWP-38.1-852-M.STEP',
    '2020-12-24T01:52:20',
    ( '' ),
    ( '' ),
    'SwSTEP 2.0',
    'SolidWorks 2020',
    '' );
FILE_SCHEMA (( 'CONFIG_CONTROL_DESIGN' ));
ENDSEC;

DATA;
#1 = AXIS2_PLACEMENT_3D ( 'NONE', #7, #60, #167 ) ;
#2 = EDGE_CURVE ( 'NONE', #43, #30, #163, .T. ) ;
#3 = AXIS2_PLACEMENT_3D ( 'NONE', #131, #14, #110 ) ;
#4 = PRODUCT_DEFINITION_FORMATION_WITH_SPECIFIED_SOURCE ( 'ANY', '', #81, .NOT_KNOWN. ) ;
#5 = LOCAL_TIME ( 9, 52, 20.00000000000000000, #39 ) ;
#6 =( LENGTH_UNIT ( ) NAMED_UNIT ( * ) SI_UNIT ( .MILLI., .METRE. ) );
#7 = CARTESIAN_POINT ( 'NONE',  ( 3.000000000000000000, 0.000000000000000000, 0.000000000000000000 ) ) ;
#8 = DIRECTION ( 'NONE',  ( 1.000000000000000000, 0.000000000000000000, 0.000000000000000000 ) ) ;
#9 = PERSON_AND_ORGANIZATION ( #38, #57 ) ;
#10 = PERSON_AND_ORGANIZATION ( #38, #57 ) ;
#11 = PERSON_AND_ORGANIZATION_ROLE ( 'creator' ) ;
#12 = DIRECTION ( 'NONE',  ( -1.000000000000000000, 0.000000000000000000, -0.000000000000000000 ) ) ;
#13 = ORIENTED_EDGE ( 'NONE', *, *, #28, .F. ) ;
#14 = DIRECTION ( 'NONE',  ( 1.000000000000000000, 0.000000000000000000, 0.000000000000000000 ) ) ;
#15 = CARTESIAN_POINT ( 'NONE',  ( -3.000000000000000000, 0.000000000000000000, 0.000000000000000000 ) ) ;
#16 = ADVANCED_FACE ( 'NONE', ( #148 ), #117, .F. ) ;
#17 = CARTESIAN_POINT ( 'NONE',  ( -3.000000000000000000, 0.000000000000000000, 0.000000000000000000 ) ) ;
#18 = APPROVAL_PERSON_ORGANIZATION ( #9, #25, #146 ) ;
#19 = DATE_TIME_ROLE ( 'creation_date' ) ;
#20 = DESIGN_CONTEXT ( 'detailed design', #21, 'design' ) ;
#21 = APPLICATION_CONTEXT ( 'configuration controlled 3d designs of mechanical parts and assemblies' ) ;
#22 = COORDINATED_UNIVERSAL_TIME_OFFSET ( 8, 0, .AHEAD. ) ;
#23 = ADVANCED_FACE ( 'NONE', ( #29 ), #56, .F. ) ;
#24 = CIRCLE ( 'NONE', #144, 25.39999999999999858 ) ;
#25 = APPROVAL ( #41, 'UNSPECIFIED' ) ;
#26 = APPROVAL_STATUS ( 'not_yet_approved' ) ;
#27 = EDGE_LOOP ( 'NONE', ( #152, #78 ) ) ;
#28 = EDGE_CURVE ( 'NONE', #30, #150, #116, .T. ) ;
#29 = FACE_OUTER_BOUND ( 'NONE', #27, .T. ) ;
#30 = VERTEX_POINT ( 'NONE', #71 ) ;
#31 = ORIENTED_EDGE ( 'NONE', *, *, #83, .T. ) ;
#32 = DIRECTION ( 'NONE',  ( -1.000000000000000000, -0.000000000000000000, -0.000000000000000000 ) ) ;
#33 = CARTESIAN_POINT ( 'NONE',  ( -1.614212418857619014, 0.000000000000000000, 25.39999999999999858 ) ) ;
#34 = DATE_AND_TIME ( #100, #89 ) ;
#35 = AXIS2_PLACEMENT_3D ( 'NONE', #141, #142, #8 ) ;
#36 = DATE_TIME_ROLE ( 'classification_date' ) ;
#37 = EDGE_CURVE ( 'NONE', #150, #30, #24, .T. ) ;
#38 = PERSON ( 'UNSPECIFIED', 'UNSPECIFIED', 'UNSPECIFIED', ('UNSPECIFIED'), ('UNSPECIFIED'), ('UNSPECIFIED') ) ;
#39 = COORDINATED_UNIVERSAL_TIME_OFFSET ( 8, 0, .AHEAD. ) ;
#40 = APPROVAL_ROLE ( '' ) ;
#41 = APPROVAL_STATUS ( 'not_yet_approved' ) ;
#42 = ORIENTED_EDGE ( 'NONE', *, *, #95, .F. ) ;
#43 = VERTEX_POINT ( 'NONE', #166 ) ;
#44 = DIRECTION ( 'NONE',  ( -1.000000000000000000, -0.000000000000000000, -0.000000000000000000 ) ) ;
#45 = DIRECTION ( 'NONE',  ( -1.000000000000000000, -0.000000000000000000, -0.000000000000000000 ) ) ;
#46 = PERSON_AND_ORGANIZATION_ROLE ( 'creator' ) ;
#47 = UNCERTAINTY_MEASURE_WITH_UNIT (LENGTH_MEASURE( 1.000000000000000082E-05 ), #6, 'distance_accuracy_value', 'NONE');
#48 = CALENDAR_DATE ( 2020, 24, 12 ) ;
#49 = PERSON_AND_ORGANIZATION ( #38, #57 ) ;
#50 = PERSON_AND_ORGANIZATION_ROLE ( 'design_supplier' ) ;
#51 = ADVANCED_BREP_SHAPE_REPRESENTATION ( 'QB-CTZQWP-38.1-852-M', ( #75, #35 ), #149 ) ;
#52 = ORIENTED_EDGE ( 'NONE', *, *, #151, .F. ) ;
#53 = ORIENTED_EDGE ( 'NONE', *, *, #2, .F. ) ;
#54 = CC_DESIGN_PERSON_AND_ORGANIZATION_ASSIGNMENT ( #86, #11, ( #4 ) ) ;
#55 = VERTEX_POINT ( 'NONE', #108 ) ;
#56 = PLANE ( 'NONE',  #3 ) ;
#57 = ORGANIZATION ( 'UNSPECIFIED', 'UNSPECIFIED', '' ) ;
#58 = DIRECTION ( 'NONE',  ( 0.000000000000000000, 0.000000000000000000, 1.000000000000000000 ) ) ;
#59 = CC_DESIGN_PERSON_AND_ORGANIZATION_ASSIGNMENT ( #111, #46, ( #121 ) ) ;
#60 = DIRECTION ( 'NONE',  ( -1.000000000000000000, -0.000000000000000000, -0.000000000000000000 ) ) ;
#61 = MECHANICAL_CONTEXT ( 'NONE', #140, 'mechanical' ) ;
#62 = SECURITY_CLASSIFICATION_LEVEL ( 'unclassified' ) ;
#63 = DATE_AND_TIME ( #48, #5 ) ;
#64 = PERSON_AND_ORGANIZATION ( #38, #57 ) ;
#65 = DATE_AND_TIME ( #127, #169 ) ;
#66 = ORIENTED_EDGE ( 'NONE', *, *, #2, .T. ) ;
#67 = EDGE_LOOP ( 'NONE', ( #53, #105, #31, #13 ) ) ;
#68 = CC_DESIGN_PERSON_AND_ORGANIZATION_ASSIGNMENT ( #87, #50, ( #4 ) ) ;
#69 = CARTESIAN_POINT ( 'NONE',  ( 3.000000000000001332, 19.05000000000000071, 0.000000000000000000 ) ) ;
#70 = CC_DESIGN_PERSON_AND_ORGANIZATION_ASSIGNMENT ( #10, #171, ( #115 ) ) ;
#71 = CARTESIAN_POINT ( 'NONE',  ( -3.000000000000000000, 3.110602869834276865E-15, -25.39999999999999858 ) ) ;
#72 =( NAMED_UNIT ( * ) SI_UNIT ( $, .STERADIAN. ) SOLID_ANGLE_UNIT ( ) );
#73 = VECTOR ( 'NONE', #136, 1000.000000000000000 ) ;
#74 = DIRECTION ( 'NONE',  ( 0.000000000000000000, 0.000000000000000000, 1.000000000000000000 ) ) ;
#75 = MANIFOLD_SOLID_BREP ( 'Ðý×', #103 ) ;
#76 = COORDINATED_UNIVERSAL_TIME_OFFSET ( 8, 0, .AHEAD. ) ;
#77 = EDGE_LOOP ( 'NONE', ( #52, #42 ) ) ;
#78 = ORIENTED_EDGE ( 'NONE', *, *, #28, .T. ) ;
#79 = CIRCLE ( 'NONE', #1, 25.39999999999999858 ) ;
#80 = ORIENTED_EDGE ( 'NONE', *, *, #83, .F. ) ;
#81 = PRODUCT ( 'QB-CTZQWP-38.1-852-M', 'QB-CTZQWP-38.1-852-M', '', ( #61 ) ) ;
#82 = CARTESIAN_POINT ( 'NONE',  ( -3.000000000000000000, 0.000000000000000000, 25.39999999999999858 ) ) ;
#83 = EDGE_CURVE ( 'NONE', #55, #150, #123, .T. ) ;
#84 = DIRECTION ( 'NONE',  ( 0.000000000000000000, 0.000000000000000000, 1.000000000000000000 ) ) ;
#85 = APPROVAL_STATUS ( 'not_yet_approved' ) ;
#86 = PERSON_AND_ORGANIZATION ( #38, #57 ) ;
#87 = PERSON_AND_ORGANIZATION ( #38, #57 ) ;
#88 = APPROVAL_DATE_TIME ( #34, #25 ) ;
#89 = LOCAL_TIME ( 9, 52, 20.00000000000000000, #76 ) ;
#90 = CC_DESIGN_APPROVAL ( #25, ( #121 ) ) ;
#91 = DIRECTION ( 'NONE',  ( -1.000000000000000000, -0.000000000000000000, -0.000000000000000000 ) ) ;
#92 = DIRECTION ( 'NONE',  ( 0.000000000000000000, 0.000000000000000000, 1.000000000000000000 ) ) ;
#93 = DIRECTION ( 'NONE',  ( 0.000000000000000000, 0.000000000000000000, 1.000000000000000000 ) ) ;
#94 = APPLICATION_PROTOCOL_DEFINITION ( 'international standard', 'config_control_design', 1994, #140 ) ;
#95 = EDGE_CURVE ( 'NONE', #43, #55, #79, .T. ) ;
#96 = COORDINATED_UNIVERSAL_TIME_OFFSET ( 8, 0, .AHEAD. ) ;
#97 = CC_DESIGN_PERSON_AND_ORGANIZATION_ASSIGNMENT ( #49, #162, ( #81 ) ) ;
#98 = AXIS2_PLACEMENT_3D ( 'NONE', #107, #45, #84 ) ;
#99 = CALENDAR_DATE ( 2020, 24, 12 ) ;
#100 = CALENDAR_DATE ( 2020, 24, 12 ) ;
#101 = APPROVAL_ROLE ( '' ) ;
#102 = APPROVAL ( #26, 'UNSPECIFIED' ) ;
#103 = CLOSED_SHELL ( 'NONE', ( #128, #16, #137, #23 ) ) ;
#104 = AXIS2_PLACEMENT_3D ( 'NONE', #170, #32, #58 ) ;
#105 = ORIENTED_EDGE ( 'NONE', *, *, #95, .T. ) ;
#106 = CC_DESIGN_DATE_AND_TIME_ASSIGNMENT ( #174, #36, ( #115 ) ) ;
#107 = CARTESIAN_POINT ( 'NONE',  ( -1.614212418857619014, 0.000000000000000000, 0.000000000000000000 ) ) ;
#108 = CARTESIAN_POINT ( 'NONE',  ( 3.000000000000000000, 0.000000000000000000, 25.39999999999999858 ) ) ;
#109 = FACE_OUTER_BOUND ( 'NONE', #165, .T. ) ;
#110 = DIRECTION ( 'NONE',  ( 0.000000000000000000, 0.000000000000000000, -1.000000000000000000 ) ) ;
#111 = PERSON_AND_ORGANIZATION ( #38, #57 ) ;
#112 = APPROVAL_DATE_TIME ( #173, #172 ) ;
#113 = PRODUCT_DEFINITION_SHAPE ( 'NONE', 'NONE',  #121 ) ;
#114 = CC_DESIGN_APPROVAL ( #172, ( #4 ) ) ;
#115 = SECURITY_CLASSIFICATION ( '', '', #62 ) ;
#116 = CIRCLE ( 'NONE', #143, 25.39999999999999858 ) ;
#117 = PLANE ( 'NONE',  #133 ) ;
#118 = CC_DESIGN_APPROVAL ( #102, ( #115 ) ) ;
#119 = DIRECTION ( 'NONE',  ( -0.000000000000000000, 0.000000000000000000, 1.000000000000000000 ) ) ;
#120 = CC_DESIGN_SECURITY_CLASSIFICATION ( #115, ( #4 ) ) ;
#121 = PRODUCT_DEFINITION ( 'UNKNOWN', '', #4, #20 ) ;
#122 = DIRECTION ( 'NONE',  ( -1.000000000000000000, -0.000000000000000000, -0.000000000000000000 ) ) ;
#123 = LINE ( 'NONE', #33, #161 ) ;
#124 = CYLINDRICAL_SURFACE ( 'NONE', #98, 25.39999999999999858 ) ;
#125 = APPLICATION_PROTOCOL_DEFINITION ( 'international standard', 'config_control_design', 1994, #21 ) ;
#126 = COORDINATED_UNIVERSAL_TIME_OFFSET ( 8, 0, .AHEAD. ) ;
#127 = CALENDAR_DATE ( 2020, 24, 12 ) ;
#128 = ADVANCED_FACE ( 'NONE', ( #109 ), #154, .T. ) ;
#129 = LOCAL_TIME ( 9, 52, 20.00000000000000000, #22 ) ;
#130 = ORIENTED_EDGE ( 'NONE', *, *, #151, .T. ) ;
#131 = CARTESIAN_POINT ( 'NONE',  ( -3.000000000000001332, 19.05000000000000071, 0.000000000000000000 ) ) ;
#132 = ORIENTED_EDGE ( 'NONE', *, *, #37, .F. ) ;
#133 = AXIS2_PLACEMENT_3D ( 'NONE', #69, #12, #119 ) ;
#134 = CARTESIAN_POINT ( 'NONE',  ( -1.614212418857619014, 3.110602869834276865E-15, -25.39999999999999858 ) ) ;
#135 = CC_DESIGN_DATE_AND_TIME_ASSIGNMENT ( #63, #19, ( #121 ) ) ;
#136 = DIRECTION ( 'NONE',  ( -1.000000000000000000, -0.000000000000000000, -0.000000000000000000 ) ) ;
#137 = ADVANCED_FACE ( 'NONE', ( #156 ), #124, .T. ) ;
#138 = DIRECTION ( 'NONE',  ( -1.000000000000000000, -0.000000000000000000, -0.000000000000000000 ) ) ;
#139 = CIRCLE ( 'NONE', #155, 25.39999999999999858 ) ;
#140 = APPLICATION_CONTEXT ( 'configuration controlled 3d designs of mechanical parts and assemblies' ) ;
#141 = CARTESIAN_POINT ( 'NONE',  ( 0.000000000000000000, 0.000000000000000000, 0.000000000000000000 ) ) ;
#142 = DIRECTION ( 'NONE',  ( 0.000000000000000000, 0.000000000000000000, 1.000000000000000000 ) ) ;
#143 = AXIS2_PLACEMENT_3D ( 'NONE', #17, #122, #74 ) ;
#144 = AXIS2_PLACEMENT_3D ( 'NONE', #15, #44, #93 ) ;
#145 = LOCAL_TIME ( 9, 52, 20.00000000000000000, #126 ) ;
#146 = APPROVAL_ROLE ( '' ) ;
#147 = PRODUCT_RELATED_PRODUCT_CATEGORY ( 'detail', '', ( #81 ) ) ;
#148 = FACE_OUTER_BOUND ( 'NONE', #77, .T. ) ;
#149 =( GEOMETRIC_REPRESENTATION_CONTEXT ( 3 ) GLOBAL_UNCERTAINTY_ASSIGNED_CONTEXT ( ( #47 ) ) GLOBAL_UNIT_ASSIGNED_CONTEXT ( ( #6, #153, #72 ) ) REPRESENTATION_CONTEXT ( 'NONE', 'WORKASPACE' ) );
#150 = VERTEX_POINT ( 'NONE', #82 ) ;
#151 = EDGE_CURVE ( 'NONE', #55, #43, #139, .T. ) ;
#152 = ORIENTED_EDGE ( 'NONE', *, *, #37, .T. ) ;
#153 =( NAMED_UNIT ( * ) PLANE_ANGLE_UNIT ( ) SI_UNIT ( $, .RADIAN. ) );
#154 = CYLINDRICAL_SURFACE ( 'NONE', #104, 25.39999999999999858 ) ;
#155 = AXIS2_PLACEMENT_3D ( 'NONE', #168, #138, #92 ) ;
#156 = FACE_OUTER_BOUND ( 'NONE', #67, .T. ) ;
#157 = APPROVAL_PERSON_ORGANIZATION ( #64, #172, #40 ) ;
#158 = PERSON_AND_ORGANIZATION ( #38, #57 ) ;
#159 = CALENDAR_DATE ( 2020, 24, 12 ) ;
#160 = SHAPE_DEFINITION_REPRESENTATION ( #113, #51 ) ;
#161 = VECTOR ( 'NONE', #91, 1000.000000000000000 ) ;
#162 = PERSON_AND_ORGANIZATION_ROLE ( 'design_owner' ) ;
#163 = LINE ( 'NONE', #134, #73 ) ;
#164 = APPROVAL_PERSON_ORGANIZATION ( #158, #102, #101 ) ;
#165 = EDGE_LOOP ( 'NONE', ( #130, #66, #132, #80 ) ) ;
#166 = CARTESIAN_POINT ( 'NONE',  ( 3.000000000000000000, 3.110602869834276865E-15, -25.39999999999999858 ) ) ;
#167 = DIRECTION ( 'NONE',  ( 0.000000000000000000, 0.000000000000000000, 1.000000000000000000 ) ) ;
#168 = CARTESIAN_POINT ( 'NONE',  ( 3.000000000000000000, 0.000000000000000000, 0.000000000000000000 ) ) ;
#169 = LOCAL_TIME ( 9, 52, 20.00000000000000000, #96 ) ;
#170 = CARTESIAN_POINT ( 'NONE',  ( -1.614212418857619014, 0.000000000000000000, 0.000000000000000000 ) ) ;
#171 = PERSON_AND_ORGANIZATION_ROLE ( 'classification_officer' ) ;
#172 = APPROVAL ( #85, 'UNSPECIFIED' ) ;
#173 = DATE_AND_TIME ( #159, #129 ) ;
#174 = DATE_AND_TIME ( #99, #145 ) ;
#175 = APPROVAL_DATE_TIME ( #65, #102 ) ;
ENDSEC;
END-ISO-10303-21;
